  0
SECTION
  2
HEADER
  9
$ACADVER
  1
AC1009
  9
$INSBASE
 10
0.0
 20
0.0
 30
0.0
  9
$EXTMIN
 10
-80.010985489947416
 20
-131.71201227911089
 30
-0.0015258207003583
  9
$EXTMAX
 10
280.01098716632811
 20
403.5481165140169
 30
0.0000000349246037
  9
$LIMMIN
 10
0.0
 20
0.0
  9
$LIMMAX
 10
0.0
 20
0.0
  9
$ORTHOMODE
 70
     0
  9
$REGENMODE
 70
     1
  9
$FILLMODE
 70
     1
  9
$QTEXTMODE
 70
     0
  9
$MIRRTEXT
 70
     1
  9
$DRAGMODE
 70
     2
  9
$LTSCALE
 40
10.16
  9
$OSMODE
 70
   231
  9
$ATTMODE
 70
     1
  9
$TEXTSIZE
 40
0.0
  9
$TRACEWID
 40
1.0
  9
$TEXTSTYLE
  7
STANDARD
  9
$CLAYER
  8
DATA
  9
$CELTYPE
  6
BYLAYER
  9
$CECOLOR
 62
   256
  9
$DIMSCALE
 40
1.0
  9
$DIMASZ
 40
0.18
  9
$DIMEXO
 40
0.0625
  9
$DIMDLI
 40
0.38
  9
$DIMRND
 40
0.0
  9
$DIMDLE
 40
0.0
  9
$DIMEXE
 40
0.18
  9
$DIMTP
 40
0.0
  9
$DIMTM
 40
0.0
  9
$DIMTXT
 40
0.18
  9
$DIMCEN
 40
0.09
  9
$DIMTSZ
 40
0.0
  9
$DIMTOL
 70
     0
  9
$DIMLIM
 70
     0
  9
$DIMTIH
 70
     1
  9
$DIMTOH
 70
     1
  9
$DIMSE1
 70
     0
  9
$DIMSE2
 70
     0
  9
$DIMTAD
 70
     0
  9
$DIMZIN
 70
     0
  9
$DIMBLK
  1

  9
$DIMASO
 70
     1
  9
$DIMSHO
 70
     1
  9
$DIMPOST
  1

  9
$DIMAPOST
  1

  9
$DIMALT
 70
     0
  9
$DIMALTD
 70
     2
  9
$DIMALTF
 40
25.399999999999999
  9
$DIMLFAC
 40
1.0
  9
$DIMTOFL
 70
     0
  9
$DIMTVP
 40
0.0
  9
$DIMTIX
 70
     0
  9
$DIMSOXD
 70
     0
  9
$DIMSAH
 70
     0
  9
$DIMBLK1
  1

  9
$DIMBLK2
  1

  9
$DIMSTYLE
  2
STANDARD
  9
$DIMCLRD
 70
     0
  9
$DIMCLRE
 70
     0
  9
$DIMCLRT
 70
     0
  9
$DIMTFAC
 40
1.0
  9
$DIMGAP
 40
0.09
  9
$LUNITS
 70
     2
  9
$LUPREC
 70
     4
  9
$SKETCHINC
 40
0.1
  9
$FILLETRAD
 40
0.0
  9
$AUNITS
 70
     0
  9
$AUPREC
 70
     0
  9
$MENU
  1
acad
  9
$ELEVATION
 40
0.0
  9
$PELEVATION
 40
0.0
  9
$THICKNESS
 40
0.0
  9
$LIMCHECK
 70
     0
  9
$BLIPMODE
 70
     0
  9
$CHAMFERA
 40
0.0
  9
$CHAMFERB
 40
0.0
  9
$SKPOLY
 70
     0
  9
$TDCREATE
 40
2455092.677164352
  9
$TDUPDATE
 40
2455092.683952651
  9
$TDINDWG
 40
0.0005378935
  9
$TDUSRTIMER
 40
0.0005378935
  9
$USRTIMER
 70
     1
  9
$ANGBASE
 50
0.0
  9
$ANGDIR
 70
     0
  9
$PDMODE
 70
     1
  9
$PDSIZE
 40
-2.0
  9
$PLINEWID
 40
0.0
  9
$COORDS
 70
     0
  9
$SPLFRAME
 70
     0
  9
$SPLINETYPE
 70
     6
  9
$SPLINESEGS
 70
     8
  9
$ATTDIA
 70
     0
  9
$ATTREQ
 70
     1
  9
$HANDLING
 70
     1
  9
$HANDSEED
  5
181
  9
$SURFTAB1
 70
     6
  9
$SURFTAB2
 70
     6
  9
$SURFTYPE
 70
     6
  9
$SURFU
 70
     6
  9
$SURFV
 70
     6
  9
$UCSNAME
  2

  9
$UCSORG
 10
0.0
 20
0.0
 30
0.0
  9
$UCSXDIR
 10
1.0
 20
0.0
 30
0.0
  9
$UCSYDIR
 10
0.0
 20
1.0
 30
0.0
  9
$PUCSNAME
  2

  9
$PUCSORG
 10
0.0
 20
0.0
 30
0.0
  9
$PUCSXDIR
 10
1.0
 20
0.0
 30
0.0
  9
$PUCSYDIR
 10
0.0
 20
1.0
 30
0.0
  9
$USERI1
 70
     0
  9
$USERI2
 70
     0
  9
$USERI3
 70
     0
  9
$USERI4
 70
     0
  9
$USERI5
 70
     0
  9
$USERR1
 40
0.0
  9
$USERR2
 40
0.0
  9
$USERR3
 40
0.0
  9
$USERR4
 40
0.0
  9
$USERR5
 40
0.0
  9
$WORLDVIEW
 70
     1
  9
$SHADEDGE
 70
     3
  9
$SHADEDIF
 70
    70
  9
$TILEMODE
 70
     1
  9
$MAXACTVP
 70
    64
  9
$PLIMCHECK
 70
     0
  9
$PEXTMIN
 10
1.0000000000000000E+020
 20
1.0000000000000000E+020
 30
1.0000000000000000E+020
  9
$PEXTMAX
 10
-1.0000000000000000E+020
 20
-1.0000000000000000E+020
 30
-1.0000000000000000E+020
  9
$PLIMMIN
 10
0.0
 20
0.0
  9
$PLIMMAX
 10
12.0
 20
9.0
  9
$UNITMODE
 70
     0
  9
$VISRETAIN
 70
     0
  9
$PLINEGEN
 70
     1
  9
$PSLTSCALE
 70
     0
  0
ENDSEC
  0
SECTION
  2
TABLES
  0
TABLE
  2
VPORT
 70
     1
  0
VPORT
  2
*ACTIVE
 70
     0
 10
0.0
 20
0.0
 11
1.0
 21
1.0
 12
100.0000008381904
 22
135.91805211745299
 13
0.0
 23
0.0
 14
1.0
 24
1.0
 15
0.0
 25
0.0
 16
0.0
 26
0.0
 36
1.0
 17
0.0
 27
0.0
 37
0.0
 40
539.24964528102703
 41
1.9863184079601981
 42
50.0
 43
0.0
 44
0.0
 50
0.0
 51
0.0
 71
     0
 72
  2000
 73
     1
 74
     1
 75
     0
 76
     0
 77
     0
 78
     0
  0
ENDTAB
  0
TABLE
  2
LTYPE
 70
    11
  0
LTYPE
  2
CONTINUOUS
 70
     0
  3
Solid line
 72
    65
 73
     0
 40
0.0
  0
ENDTAB
  0
TABLE
  2
LAYER
 70
     5
  0
LAYER
  2
0
 70
     0
 62
     7
  6
CONTINUOUS
  0
LAYER
  2
DATA
 70
     0
 62
     7
  6
CONTINUOUS
  0
LAYER
  2
HIBINO-BASE
 70
     0
 62
     7
  6
CONTINUOUS
  0
LAYER
  2
SPEC
 70
     0
 62
     7
  6
CONTINUOUS
  0
LAYER
  2
DIMNSIONS
 70
     0
 62
     7
  6
CONTINUOUS
  0
ENDTAB
  0
TABLE
  2
STYLE
 70
     3
  0
STYLE
  2
STANDARD
 70
     0
 40
0.0
 41
1.0
 50
0.0
 71
     0
 42
0.0
  3
txt
  4
BIGFONT.SHX
  0
ENDTAB
  0
TABLE
  2
VIEW
 70
     0
  0
ENDTAB
  0
TABLE
  2
UCS
 70
     0
  0
ENDTAB
  0
TABLE
  2
APPID
 70
     3
  0
APPID
  2
ACAD
 70
     0
  0
APPID
  2
ACADANNOTATIVE
 70
     0
  0
APPID
  2
ACAD_MLEADERVER
 70
     0
  0
ENDTAB
  0
TABLE
  2
DIMSTYLE
 70
     2
  0
DIMSTYLE
  2
STANDARD
 70
     0
  3

  4

  5

  6

  7

 40
1.0
 41
0.18
 42
0.0625
 43
0.38
 44
0.18
 45
0.0
 46
0.0
 47
0.0
 48
0.0
140
0.18
141
0.09
142
0.0
143
25.399999999999999
144
1.0
145
0.0
146
1.0
147
0.09
 71
     0
 72
     0
 73
     1
 74
     1
 75
     0
 76
     0
 77
     0
 78
     0
170
     0
171
     2
172
     0
173
     0
174
     0
175
     0
176
     0
177
     0
178
     0
  0
ENDTAB
  0
ENDSEC
  0
SECTION
  2
BLOCKS
  0
BLOCK
  8
0
  2
$MODEL_SPACE
 70
     0
 10
0.0
 20
0.0
 30
0.0
  3
$MODEL_SPACE
  1

  0
ENDBLK
  5
122
  8
0
  0
BLOCK
 67
     1
  8
0
  2
$PAPER_SPACE
 70
     0
 10
0.0
 20
0.0
 30
0.0
  3
$PAPER_SPACE
  1

  0
ENDBLK
  5
11E
 67
     1
  8
0
  0
ENDSEC
  0
SECTION
  2
ENTITIES
  0
LINE
  5
2C
  8
HIBINO-BASE
  6
CONTINUOUS
 62
     7
 10
-79.999999999999986
 20
403.53181499999999
 30
0.0
 11
279.99999999999989
 21
403.53181499999999
 31
0.0
  0
LINE
  5
2D
  8
HIBINO-BASE
  6
CONTINUOUS
 62
     7
 10
279.99999999999989
 20
-116.46818500000001
 30
0.0
 11
-79.999999999999986
 21
-116.46818500000001
 31
0.0
  0
LINE
  5
2E
  8
HIBINO-BASE
  6
CONTINUOUS
 62
     7
 10
-79.999999999999986
 20
-116.46818500000001
 30
0.0
 11
-79.999999999999986
 21
403.53181499999999
 31
0.0
  0
TEXT
  5
2F
  8
HIBINO-BASE
 62
     7
 10
-65.631999999999991
 20
-129.2855405999999
 30
0.0
 40
7.2000883593749991
  1
Hibino Corporation
 41
0.7
 11
-65.631999999999991
 21
-122.0854522406249
 31
0.0
 73
     3
  0
LINE
  5
30
  8
HIBINO-BASE
  6
CONTINUOUS
 62
     7
 10
279.99999999999989
 20
403.53181499999999
 30
0.0
 11
279.99999999999989
 21
-116.46818500000001
 31
0.0
  0
LINE
  5
31
  8
HIBINO-BASE
  6
CONTINUOUS
 62
     7
 10
100.0
 20
-71.468184999999977
 30
0.0
 11
279.99999999999989
 21
-71.468184999999977
 31
0.0
  0
LINE
  5
32
  8
HIBINO-BASE
  6
CONTINUOUS
 62
     7
 10
100.0
 20
-116.46818500000001
 30
0.0
 11
100.0
 21
-71.468184999999977
 31
0.0
  0
TEXT
  5
33
  8
HIBINO-BASE
 62
     7
 10
101.8
 20
-76.485571666666644
 30
0.0
 40
3.2576822916666659
  1
NOTE
 41
0.7
 11
101.8
 21
-73.227889374999975
 31
0.0
 73
     3
  0
LINE
  5
34
  8
HIBINO-BASE
  6
CONTINUOUS
 62
     7
 10
170.0
 20
-116.46818500000001
 30
0.0
 11
170.0
 21
-71.468184999999977
 31
0.0
  0
TEXT
  5
35
  8
HIBINO-BASE
 62
     7
 10
171.7999999999999
 20
-76.485571666666644
 30
0.0
 40
3.2576822916666659
  1
TITLE
 41
0.7
 11
171.7999999999999
 21
-73.227889374999975
 31
0.0
 73
     3
  0
TEXT
  5
36
  8
HIBINO-BASE
 62
     7
 10
200.13677999999999
 20
-129.2855405999999
 30
0.0
 40
7.2000883593749991
  1
ヒビノ株式会社
 41
0.7
 11
200.13677999999999
 21
-122.0854522406249
 31
0.0
 73
     3
  0
LINE
  5
37
  8
HIBINO-BASE
  6
CONTINUOUS
 62
     7
 10
100.0
 20
-96.468184999999963
 30
0.0
 11
279.99999999999989
 21
-96.468184999999963
 31
0.0
  0
TEXT
  5
38
  8
HIBINO-BASE
 62
     7
 10
196.80000000000001
 20
-101.3729316666666
 30
0.0
 40
3.2576822916666659
  1
DRAWN
 41
0.7
 11
196.80000000000001
 21
-98.115249375000005
 31
0.0
 73
     3
  0
TEXT
  5
39
  8
HIBINO-BASE
 62
     7
 10
146.7999999999999
 20
-101.3729316666666
 30
0.0
 40
3.2576822916666659
  1
DATE
 41
0.7
 11
146.7999999999999
 21
-98.115249375000005
 31
0.0
 73
     3
  0
TEXT
  5
3A
  8
HIBINO-BASE
 62
     7
 10
126.8
 20
-101.3729316666666
 30
0.0
 40
3.2576822916666659
  1
SCALE
 41
0.7
 11
126.8
 21
-98.115249375000005
 31
0.0
 73
     3
  0
TEXT
  5
3B
  8
HIBINO-BASE
 62
     7
 10
171.7999999999999
 20
-101.3729316666666
 30
0.0
 40
3.2576822916666659
  1
DESIGN
 41
0.7
 11
171.7999999999999
 21
-98.115249375000005
 31
0.0
 73
     3
  0
TEXT
  5
3C
  8
HIBINO-BASE
 62
     7
 10
246.7999999999999
 20
-101.3729316666666
 30
0.0
 40
3.2576822916666659
  1
DRAWING NO.
 41
0.7
 11
246.7999999999999
 21
-98.115249375000005
 31
0.0
 73
     3
  0
TEXT
  5
3D
  8
HIBINO-BASE
 62
     7
 10
221.7999999999999
 20
-101.3729316666666
 30
0.0
 40
3.2576822916666659
  1
CHECK
 41
0.7
 11
221.7999999999999
 21
-98.115249375000005
 31
0.0
 73
     3
  0
LINE
  5
3E
  8
HIBINO-BASE
  6
CONTINUOUS
 62
     7
 10
128.74999999999989
 20
-113.96818500000001
 30
0.0
 11
136.25
 21
-106.46818499999991
 31
0.0
  0
TEXT
  5
3F
  8
HIBINO-BASE
 62
     7
 10
127.5
 20
-108.68607166666661
 30
0.0
 40
3.2576822916666659
  1
1
 41
0.7
 11
127.5
 21
-105.42838937499999
 31
0.0
 73
     3
  0
LINE
  5
40
  8
HIBINO-BASE
  6
CONTINUOUS
 62
     7
 10
125.0
 20
-116.46818500000001
 30
0.0
 11
125.0
 21
-96.468184999999963
 31
0.0
  0
LINE
  5
41
  8
HIBINO-BASE
  6
CONTINUOUS
 62
     7
 10
145.0
 20
-116.46818500000001
 30
0.0
 11
145.0
 21
-96.468184999999963
 31
0.0
  0
LINE
  5
42
  8
HIBINO-BASE
  6
CONTINUOUS
 62
     7
 10
195.0
 20
-96.468184999999963
 30
0.0
 11
195.0
 21
-116.46818500000001
 31
0.0
  0
LINE
  5
43
  8
HIBINO-BASE
  6
CONTINUOUS
 62
     7
 10
245.0
 20
-96.468184999999963
 30
0.0
 11
245.0
 21
-116.46818500000001
 31
0.0
  0
LINE
  5
44
  8
HIBINO-BASE
  6
CONTINUOUS
 62
     7
 10
220.0
 20
-116.46818500000001
 30
0.0
 11
220.0
 21
-96.468184999999963
 31
0.0
  0
TEXT
  5
45
  8
HIBINO-BASE
 62
     7
 10
146.71307999999999
 20
-110.7408916666666
 30
0.0
 40
3.2576822916666659
  1
'09.09.
 41
0.7
 11
146.71307999999999
 21
-107.483209375
 31
0.0
 73
     3
  0
TEXT
  5
46
  8
HIBINO-BASE
 62
     7
 10
135.0
 20
-112.43607166666661
 30
0.0
 40
3.2576822916666659
  1
2
 41
0.7
 11
135.0
 21
-109.17838937499999
 31
0.0
 73
     3
  0
TEXT
  5
47
  8
HIBINO-BASE
 62
     7
 10
198.0116200220692
 20
-110.7408916666666
 30
0.0
 40
3.2576822916666659
  1
N.Sasaki
 41
0.7
 11
198.0116200220692
 21
-107.483209375
 31
0.0
 73
     3
  0
TEXT
  5
48
  8
HIBINO-BASE
 62
     7
 10
107.76666666666659
 20
-112.51618499999999
 30
0.0
 40
6.5153645833333318
  1
A4
 41
0.7
 11
107.76666666666659
 21
-106.0008204166666
 31
0.0
 73
     3
  0
TEXT
  5
49
  8
HIBINO-BASE
 62
     7
 10
101.9166666666666
 20
-101.707095
 30
0.0
 40
3.2576822916666659
  1
PAPER SIZE
 41
0.7
 11
101.9166666666666
 21
-98.449412708333327
 31
0.0
 73
     3
  0
LINE
  5
4A
  8
SPEC
  6
CONTINUOUS
 62
     7
 10
-64.999999999999986
 20
383.53181499999999
 30
0.0
 11
230.0
 21
383.53181499999999
 31
0.0
  0
LINE
  5
4B
  8
SPEC
  6
CONTINUOUS
 62
     7
 10
-64.999999999999986
 20
376.03181499999999
 30
0.0
 11
230.0
 21
376.03181499999999
 31
0.0
  0
LINE
  5
4C
  8
SPEC
  6
CONTINUOUS
 62
     7
 10
-64.999999999999986
 20
346.03181499999988
 30
0.0
 11
230.0
 21
346.03181499999988
 31
0.0
  0
LINE
  5
4D
  8
SPEC
  6
CONTINUOUS
 62
     7
 10
-64.999999999999986
 20
353.53181499999988
 30
0.0
 11
230.0
 21
353.53181499999988
 31
0.0
  0
LINE
  5
4E
  8
SPEC
  6
CONTINUOUS
 62
     7
 10
-64.999999999999986
 20
361.03181499999999
 30
0.0
 11
230.0
 21
361.03181499999999
 31
0.0
  0
LINE
  5
4F
  8
SPEC
  6
CONTINUOUS
 62
     7
 10
-64.999999999999986
 20
383.53181499999999
 30
0.0
 11
-64.999999999999986
 21
308.53181499999988
 31
0.0
  0
TEXT
  5
50
  8
SPEC
 62
     7
 10
-62.5
 20
387.5319105555555
 30
0.0
 40
3.8006293402777769
  1
仕様
 41
0.7
 11
-62.5
 21
391.33253989583329
 31
0.0
 73
     3
  0
LINE
  5
51
  8
SPEC
  6
CONTINUOUS
 62
     7
 10
0.0
 20
383.53181499999999
 30
0.0
 11
0.0
 21
308.53181499999988
 31
0.0
  0
LINE
  5
52
  8
SPEC
  6
CONTINUOUS
 62
     7
 10
230.0
 20
383.53181499999999
 30
0.0
 11
230.0
 21
308.53181499999988
 31
0.0
  0
TEXT
  5
53
  8
SPEC
 62
     7
 10
-63.332273231153621
 20
377.80593317851009
 30
0.0
 40
3.8006293402777769
  1
形式
 41
0.7
 11
-63.332273231153621
 21
381.60656251878783
 31
0.0
 73
     3
  0
TEXT
  5
54
  8
SPEC
 62
     7
 10
-63.420440575370428
 20
325.76828592289462
 30
0.0
 40
3.8006293402777769
  1
寸法
 41
0.7
 11
-63.420440575370428
 21
329.56891526317241
 31
0.0
 73
     3
  0
TEXT
  5
55
  8
SPEC
 62
     7
 10
-63.323530875438891
 20
318.08007519985421
 30
0.0
 40
3.8006293402777769
  1
重量
 41
0.7
 11
-63.323530875438891
 21
321.880704540132
 31
0.0
 73
     3
  0
TEXT
  5
56
  8
SPEC
 62
     7
 10
1.2315837596006101
 20
325.4955829094917
 30
0.0
 40
3.8006293402777769
  1
\U+03A619\U+00D7111mm(突起部含まず)
 41
0.7
 11
1.2315837596006101
 21
329.2962122497695
 31
0.0
 73
     3
  0
TEXT
  5
57
  8
SPEC
 62
     7
 10
1.727158775261614
 20
318.17527642003762
 30
0.0
 40
3.8006293402777769
  1
約96g
 41
0.7
 11
1.727158775261614
 21
321.97590576031541
 31
0.0
 73
     3
  0
LINE
  5
58
  8
SPEC
  6
CONTINUOUS
 62
     7
 10
-64.999999999999986
 20
368.53181499999999
 30
0.0
 11
230.0
 21
368.53181499999999
 31
0.0
  0
LINE
  5
59
  8
SPEC
  6
CONTINUOUS
 62
     7
 10
-64.999999999999986
 20
338.53181499999988
 30
0.0
 11
230.0
 21
338.53181499999988
 31
0.0
  0
LINE
  5
5A
  8
SPEC
  6
CONTINUOUS
 62
     7
 10
-64.999999999999986
 20
331.03181499999999
 30
0.0
 11
230.0
 21
331.03181499999999
 31
0.0
  0
LINE
  5
5B
  8
SPEC
  6
CONTINUOUS
 62
     7
 10
-64.999999999999986
 20
323.53181499999988
 30
0.0
 11
230.0
 21
323.53181499999988
 31
0.0
  0
LINE
  5
5C
  8
SPEC
  6
CONTINUOUS
 62
     7
 10
-64.999999999999986
 20
316.03181499999988
 30
0.0
 11
230.0
 21
316.03181499999988
 31
0.0
  0
LINE
  5
5D
  8
SPEC
  6
CONTINUOUS
 62
     7
 10
-64.999999999999986
 20
308.53181499999988
 30
0.0
 11
230.0
 21
308.53181499999988
 31
0.0
  0
TEXT
  5
5E
  8
SPEC
 62
     7
 10
-63.22419597543022
 20
370.45039987051899
 30
0.0
 40
3.8006293402777769
  1
周波数特性
 41
0.7
 11
-63.22419597543022
 21
374.25102921079679
 31
0.0
 73
     3
  0
TEXT
  5
5F
  8
SPEC
 62
     7
 10
1.854392796335516
 20
370.2234180426895
 30
0.0
 40
3.8006293402777769
  1
20Hz～20kHz
 41
0.7
 11
1.8543927963355169
 21
374.02404738296718
 31
0.0
 73
     3
  0
TEXT
  5
60
  8
SPEC
 62
     7
 10
-63.214936908042489
 20
362.98290338040982
 30
0.0
 40
3.8006293402777769
  1
パッド
 41
0.7
 11
-63.214936908042489
 21
366.78353272068762
 31
0.0
 73
     3
  0
TEXT
  5
61
  8
SPEC
 62
     7
 10
1.882447036419477
 20
362.86268517587058
 30
0.0
 40
3.8006293402777769
  1
O/ー10dB
 41
0.7
 11
1.8824470364194781
 21
366.66331451614838
 31
0.0
 73
     3
  0
TEXT
  5
62
  8
SPEC
 62
     7
 10
-63.937853844239093
 20
355.69331620136683
 30
0.0
 40
3.8006293402777769
  1
ローカットフィルター
 41
0.7
 11
-63.937853844239093
 21
359.49394554164451
 31
0.0
 73
     3
  0
TEXT
  5
63
  8
SPEC
 62
     7
 10
1.8159087210698741
 20
355.60195556686159
 30
0.0
 40
3.8006293402777769
  1
Flat/75Hz(12dB/oct）
 41
0.7
 11
1.8159087210698741
 21
359.40258490713938
 31
0.0
 73
     3
  0
TEXT
  5
64
  8
SPEC
 62
     7
 10
-63.453655384590881
 20
347.99994060820762
 30
0.0
 40
3.8006293402777769
  1
インピーダンス
 41
0.7
 11
-63.453655384590881
 21
351.80056994848542
 31
0.0
 73
     3
  0
TEXT
  5
65
  8
SPEC
 62
     7
 10
1.8150404773172819
 20
347.96829547279208
 30
0.0
 40
3.8006293402777769
  1
200\U+03A9以下
 41
0.7
 11
1.8150404773172819
 21
351.76892481306987
 31
0.0
 73
     3
  0
TEXT
  5
66
  8
SPEC
 62
     7
 10
-63.344809798841851
 20
340.55376277711059
 30
0.0
 40
3.8006293402777769
  1
電源
 41
0.7
 11
-63.344809798841851
 21
344.35439211738839
 31
0.0
 73
     3
  0
TEXT
  5
67
  8
SPEC
 62
     7
 10
1.3355916990452521
 20
340.58830304969399
 30
0.0
 40
3.8006293402777769
  1
ファンタム DC 9～52V/2mA以下
 41
0.7
 11
1.3355916990452521
 21
344.38893238997179
 31
0.0
 73
     3
  0
TEXT
  5
68
  8
SPEC
 62
     7
 10
-63.721959605525669
 20
332.98647132965539
 30
0.0
 40
3.8006293402777769
  1
コネクター
 41
0.7
 11
-63.721959605525669
 21
336.78710066993318
 31
0.0
 73
     3
  0
TEXT
  5
69
  8
SPEC
 62
     7
 10
1.984999675152735
 20
332.77120412461142
 30
0.0
 40
3.8006293402777769
  1
XLR 3ピン オス
 41
0.7
 11
1.984999675152735
 21
336.57183346488921
 31
0.0
 73
     3
  0
TEXT
  5
6A
  8
SPEC
 62
     7
 10
1.495753671790083
 20
310.74499434514991
 30
0.0
 40
3.8006293402777769
  1
マイクホルダー（SA 60）
 41
0.7
 11
1.495753671790083
 21
314.54562368542759
 31
0.0
 73
     3
  0
TEXT
  5
6B
  8
SPEC
 62
     7
 10
-63.265543425966648
 20
310.69605009879871
 30
0.0
 40
3.8006293402777769
  1
付属品
 41
0.7
 11
-63.265543425966648
 21
314.49667943907639
 31
0.0
 73
     3
  0
TEXT
  5
6C
  8
SPEC
 62
     7
 10
1.8584583270437061
 20
377.84978611069181
 30
0.0
 40
3.8006293402777769
  1
Blue Line専用プリアンプ
 41
0.7
 11
1.8584583270437061
 21
381.6504154509696
 31
0.0
 73
     3
  0
TEXT
  5
6D
  8
DIMNSIONS
 62
     7
 10
60.0
 20
-91.929204999999968
 30
0.0
 40
4.8865234375000002
  1
(単位：mm)
 41
0.7
 11
60.0
 21
-87.042681562499979
 31
0.0
 73
     3
  0
LINE
  5
6E
  8
DIMNSIONS
  6
CONTINUOUS
 62
     7
 10
29.749999999999989
 20
95.25
 30
0.0
 11
14.75
 21
95.25
 31
0.0
  0
LINE
  5
6F
  8
DIMNSIONS
  6
CONTINUOUS
 62
     7
 10
29.749999999999989
 20
206.25
 30
0.0
 11
14.75
 21
206.25
 31
0.0
  0
LINE
  5
70
  8
DIMNSIONS
  6
CONTINUOUS
 62
     7
 10
18.75
 20
95.25
 30
0.0
 11
18.75
 21
206.25
 31
0.0
  0
LINE
  5
71
  8
DIMNSIONS
  6
CONTINUOUS
 62
     7
 10
18.75
 20
95.25
 30
0.0
 11
17.409920409699499
 21
100.25124511718749
 31
0.0
  0
LINE
  5
72
  8
DIMNSIONS
  6
CONTINUOUS
 62
     7
 10
18.75
 20
95.25
 30
0.0
 11
20.090079590300491
 21
100.25124511718749
 31
0.0
  0
LINE
  5
73
  8
DIMNSIONS
  6
CONTINUOUS
 62
     7
 10
18.75
 20
206.25
 30
0.0
 11
20.090079590300491
 21
201.24875488281239
 31
0.0
  0
LINE
  5
74
  8
DIMNSIONS
  6
CONTINUOUS
 62
     7
 10
18.75
 20
206.25
 30
0.0
 11
17.409920409699499
 21
201.24875488281239
 31
0.0
  0
TEXT
  5
75
  8
DIMNSIONS
 62
     7
 10
16.762222222222221
 20
145.45833333333329
 30
0.0
 40
5.4294704861111107
  1
111
 50
90.0
 41
0.7
 11
11.332751736111099
 21
145.45833333333329
 31
0.0
 73
     3
  0
LINE
  5
76
  8
DIMNSIONS
  6
CONTINUOUS
 62
     7
 10
48.203156517029988
 20
239.64162660244349
 30
0.0
 11
53.700000000000003
 21
250.0
 31
0.0
  0
LINE
  5
77
  8
DIMNSIONS
  6
CONTINUOUS
 62
     7
 10
48.203156517029988
 20
239.64162660244349
 30
0.0
 11
49.367878829576121
 21
244.6865931994775
 31
0.0
  0
LINE
  5
78
  8
DIMNSIONS
  6
CONTINUOUS
 62
     7
 10
48.203156517029988
 20
239.64162660244349
 30
0.0
 11
51.734318926566488
 21
243.4283346804458
 31
0.0
  0
LINE
  5
79
  8
DIMNSIONS
  6
CONTINUOUS
 62
     7
 10
53.700000000000003
 20
250.0
 30
0.0
 11
71.811111111111131
 21
250.0
 31
0.0
  0
TEXT
  5
7A
  8
DIMNSIONS
 62
     7
 10
57.700000000000003
 20
251.98777777777781
 30
0.0
 40
5.4294704861111107
  1
\U+03C619
 41
0.7
 11
57.700000000000003
 21
257.41724826388889
 31
0.0
 73
     3
  0
TEXT
  5
7B
  8
DATA
 62
     7
 10
200.0
 20
-94.206404999999947
 30
0.0
 40
4.8865234375000002
  1
SE300B
 41
0.7
 11
200.0
 21
-89.319881562499958
 31
0.0
 73
     3
  0
TEXT
  5
7C
  8
DATA
 62
     7
 10
200.0
 20
-79.706404999999975
 30
0.0
 40
4.8865234375000002
  1
AKG
 41
0.7
 11
200.0
 21
-74.819881562499972
 31
0.0
 73
     3
  0
TEXT
  5
7D
  8
DATA
 62
     7
 10
195.0
 20
-86.660311666666686
 30
0.0
 40
3.2576822916666659
  1
Blue Line専用プリアンプ
 41
0.7
 11
195.0
 21
-83.402629375000004
 31
0.0
 73
     3
  0
TEXT
  5
7E
  8
DATA
 62
     7
 10
-60.0
 20
-107.99218500000001
 30
0.0
 40
3.2576822916666659
  1
仕様および外観は予告なく変更されることがありますので、ご了承ください。
 41
0.7
 11
-60.0
 21
-104.7345027083333
 31
0.0
 73
     3
  0
LINE
  5
7F
  8
DATA
  6
CONTINUOUS
 62
     7
 10
34.249999999999993
 20
206.25
 30
0.0
 11
53.249999999999993
 21
206.25
 31
0.0
  0
CIRCLE
  5
80
  8
DATA
  6
CONTINUOUS
 62
     7
 10
43.749999999999993
 20
231.25
 30
0.0
 40
9.5
  0
LINE
  5
81
  8
DATA
  6
CONTINUOUS
 62
     7
 10
41.662809010171273
 20
156.23070627592551
 30
0.0
 11
41.662809010171273
 21
164.17328954204339
 31
0.0
  0
LINE
  5
82
  8
DATA
  6
CONTINUOUS
 62
     7
 10
44.86280901017129
 20
164.17328954204339
 30
0.0
 11
44.86280901017129
 21
156.2307062759254
 31
0.0
  0
ARC
  5
83
  8
DATA
  6
CONTINUOUS
 62
     7
 10
43.262809010171289
 20
163.36629837335701
 30
0.0
 40
1.791991837687277
 50
26.764983154423799
 51
153.23501684557661
  0
ARC
  5
84
  8
DATA
  6
CONTINUOUS
 62
     7
 10
43.262809010171289
 20
157.03769744461189
 30
0.0
 40
1.7919918376873141
 50
206.7649831544241
 51
333.23501684557561
  0
LINE
  5
85
  8
DATA
  6
CONTINUOUS
 62
     7
 10
41.662809010171273
 20
162.84458799343449
 30
0.0
 11
44.86280901017129
 21
162.84458799343449
 31
0.0
  0
LINE
  5
86
  8
DATA
  6
CONTINUOUS
 62
     7
 10
41.662809010171273
 20
163.79458799343459
 30
0.0
 11
44.86280901017129
 21
163.79458799343459
 31
0.0
  0
TEXT
  5
87
  8
DATA
 62
     7
 10
45.269123526432637
 20
156.74504685312161
 30
0.0
 40
1.085894097222222
  1
-10dB
 41
0.7
 11
45.269123526432637
 21
157.8309409503438
 31
0.0
 73
     3
  0
TEXT
  5
88
  8
DATA
 62
     7
 10
45.447031211321807
 20
160.0405306308607
 30
0.0
 40
1.085894097222222
  1
75Hz
 41
0.7
 11
45.447031211321807
 21
161.1264247280829
 31
0.0
 73
     3
  0
TEXT
  5
89
  8
DATA
 62
     7
 10
45.383423822898742
 20
162.81418568808539
 30
0.0
 40
1.085894097222222
  1
lin
 41
0.7
 11
45.383423822898742
 21
163.9000797853077
 31
0.0
 73
     3
  0
LINE
  5
8A
  8
DATA
  6
CONTINUOUS
 62
     7
 10
40.777995990917468
 20
160.521773905408
 30
0.0
 11
39.127995990917483
 21
160.521773905408
 31
0.0
  0
LINE
  5
8B
  8
DATA
  6
CONTINUOUS
 62
     7
 10
39.127995990917483
 20
160.521773905408
 30
0.0
 11
38.707995990917489
 21
159.96177390540799
 31
0.0
  0
TEXT
  5
8C
  8
DATA
 62
     7
 10
39.022041597646691
 20
100.3508472912422
 30
0.0
 40
2.1717881944444439
  1
P12-48
 41
0.7
 11
39.022041597646691
 21
102.52263548568661
 31
0.0
 73
     3
  0
ARC
  5
8D
  8
DATA
  6
CONTINUOUS
 62
     7
 10
43.749999999999908
 20
56.250000000000142
 30
0.0
 40
7.9999999999999387
 50
51.100456443224211
 51
43.937317805908542
  0
CIRCLE
  5
8E
  8
DATA
  6
CONTINUOUS
 62
     7
 10
43.749999999999993
 20
231.25
 30
0.0
 40
6.0
  0
CIRCLE
  5
8F
  8
DATA
  6
CONTINUOUS
 62
     7
 10
43.749999999999993
 20
231.25
 30
0.0
 40
3.25
  0
CIRCLE
  5
90
  8
DATA
  6
CONTINUOUS
 62
     7
 10
43.749999999999993
 20
231.25
 30
0.0
 40
0.5
  0
CIRCLE
  5
91
  8
DATA
  6
CONTINUOUS
 62
     7
 10
43.749999999999993
 20
52.350000000000001
 30
0.0
 40
1.1500000000000341
  0
CIRCLE
  5
92
  8
DATA
  6
CONTINUOUS
 62
     7
 10
47.649999999999963
 20
55.700054075354167
 30
0.0
 40
1.149999999999977
  0
CIRCLE
  5
93
  8
DATA
  6
CONTINUOUS
 62
     7
 10
39.849999999999952
 20
55.700054075354167
 30
0.0
 40
1.149999999999977
  0
ARC
  5
94
  8
DATA
  6
CONTINUOUS
 62
     7
 10
49.152777063696057
 20
62.149999999999991
 30
0.0
 40
0.499999999999983
 50
315.7281024652338
 51
139.3096717839004
  0
CIRCLE
  5
95
  8
DATA
  6
CONTINUOUS
 62
     7
 10
43.749999999999993
 20
231.25
 30
0.0
 40
7.7999999999999972
  0
ARC
  5
96
  8
DATA
  6
CONTINUOUS
 62
     7
 10
43.749999999999993
 20
237.4467659292595
 30
0.0
 40
1.149999999999995
 50
344.86022609801148
 51
195.1397739019886
  0
ARC
  5
97
  8
DATA
  6
CONTINUOUS
 62
     7
 10
43.749999999999993
 20
225.0532340707405
 30
0.0
 40
1.149999999999995
 50
164.8602260980114
 51
15.139773901988599
  0
LINE
  5
98
  8
DATA
  6
CONTINUOUS
 62
     7
 10
34.249999999999993
 20
95.25
 30
0.0
 11
53.249999999999993
 21
95.25
 31
0.0
  0
LINE
  5
99
  8
DATA
  6
CONTINUOUS
 62
     7
 10
40.777995990917468
 20
163.112087150348
 30
0.0
 11
38.707995990917489
 21
163.112087150348
 31
0.0
  0
LINE
  5
9A
  8
DATA
  6
CONTINUOUS
 62
     7
 10
40.777995990917468
 20
157.32659159733981
 30
0.0
 11
38.707995990917489
 21
157.32659159733981
 31
0.0
  0
CIRCLE
  5
9B
  8
DATA
  6
CONTINUOUS
 62
     7
 10
43.749999999999993
 20
111.25
 30
0.0
 40
2.2999999999999958
  0
LINE
  5
9C
  8
DATA
  6
CONTINUOUS
 62
     7
 10
42.441374767169741
 20
111.25
 30
0.0
 11
45.058625232830231
 21
111.25
 31
0.0
  0
LINE
  5
9D
  8
DATA
  6
CONTINUOUS
 62
     7
 10
43.749999999999993
 20
109.94137476716971
 30
0.0
 11
43.749999999999993
 21
112.5586252328302
 31
0.0
  0
TEXT
  5
9E
  8
DATA
 62
     7
 10
39.922058365116001
 20
195.25060539039049
 30
0.0
 40
4.3435763888888879
  1
AKG
 41
0.7
 11
39.922058365116001
 21
199.59418177927941
 31
0.0
 73
     3
  0
TEXT
  5
9F
  8
DATA
 62
     7
 10
39.576386209009023
 20
191.3336199492494
 30
0.0
 40
2.1717881944444439
  1
SE300B
 41
0.7
 11
39.576386209009023
 21
193.50540814369381
 31
0.0
 73
     3
  0
LINE
  5
A0
  8
DATA
  6
CONTINUOUS
 62
     7
 10
34.249999999999993
 20
204.25
 30
0.0
 11
53.249999999999993
 21
204.25
 31
0.0
  0
LINE
  5
A1
  8
DATA
  6
CONTINUOUS
 62
     7
 10
34.249999999999993
 20
206.25
 30
0.0
 11
34.249999999999993
 21
95.25
 31
0.0
  0
LINE
  5
A2
  8
DATA
  6
CONTINUOUS
 62
     7
 10
53.249999999999993
 20
206.25
 30
0.0
 11
53.249999999999993
 21
95.25
 31
0.0
  0
CIRCLE
  5
A3
  8
DATA
  6
CONTINUOUS
 62
     7
 10
43.749999999999993
 20
56.25
 30
0.0
 40
9.5
  0
LINE
  5
A4
  8
DATA
  6
CONTINUOUS
 62
     7
 10
74.999999999999986
 20
206.25
 30
0.0
 11
93.999999999999986
 21
206.25
 31
0.0
  0
LINE
  5
A5
  8
DATA
  6
CONTINUOUS
 62
     7
 10
74.999999999999986
 20
95.25
 30
0.0
 11
93.999999999999986
 21
95.25
 31
0.0
  0
LINE
  5
A6
  8
DATA
  6
CONTINUOUS
 62
     7
 10
74.999999999999986
 20
204.25
 30
0.0
 11
93.999999999999986
 21
204.25
 31
0.0
  0
LINE
  5
A7
  8
DATA
  6
CONTINUOUS
 62
     7
 10
74.999999999999986
 20
206.25
 30
0.0
 11
74.999999999999986
 21
95.25
 31
0.0
  0
LINE
  5
A8
  8
DATA
  6
CONTINUOUS
 62
     7
 10
93.999999999999986
 20
206.25
 30
0.0
 11
93.999999999999986
 21
95.25
 31
0.0
  0
ENDSEC
  0
EOF
